ISO-10303-21;
HEADER;
FILE_DESCRIPTION (( 'STEP AP203' ),
    '1' );
FILE_NAME ('Q-OZHWP-R2-20-980-M.STEP',
    '2020-12-22T09:17:43',
    ( '' ),
    ( '' ),
    'SwSTEP 2.0',
    'SolidWorks 2020',
    '' );
FILE_SCHEMA (( 'CONFIG_CONTROL_DESIGN' ));
ENDSEC;

DATA;
#1 = APPROVAL ( #275, 'UNSPECIFIED' ) ;
#2 = AXIS2_PLACEMENT_3D ( 'NONE', #127, #104, #234 ) ;
#3 = CARTESIAN_POINT ( 'NONE',  ( -2.500000000000000444, 0.000000000000000000, 10.00000000000000000 ) ) ;
#4 = DIRECTION ( 'NONE',  ( 1.000000000000000000, 0.000000000000000000, 0.000000000000000000 ) ) ;
#5 = DIRECTION ( 'NONE',  ( 0.000000000000000000, 0.000000000000000000, -1.000000000000000000 ) ) ;
#6 = VERTEX_POINT ( 'NONE', #92 ) ;
#7 = DIRECTION ( 'NONE',  ( 0.000000000000000000, 0.000000000000000000, 1.000000000000000000 ) ) ;
#8 = APPROVAL_DATE_TIME ( #159, #48 ) ;
#9 = ORIENTED_EDGE ( 'NONE', *, *, #194, .T. ) ;
#10 = ORIENTED_EDGE ( 'NONE', *, *, #171, .T. ) ;
#11 = DATE_AND_TIME ( #246, #303 ) ;
#12 = ORIENTED_EDGE ( 'NONE', *, *, #160, .T. ) ;
#13 = CALENDAR_DATE ( 2020, 22, 12 ) ;
#14 = EDGE_LOOP ( 'NONE', ( #165, #247 ) ) ;
#15 = ORIENTED_EDGE ( 'NONE', *, *, #130, .F. ) ;
#16 = FACE_OUTER_BOUND ( 'NONE', #137, .T. ) ;
#17 = EDGE_CURVE ( 'NONE', #143, #6, #95, .T. ) ;
#18 = AXIS2_PLACEMENT_3D ( 'NONE', #83, #128, #81 ) ;
#19 = CYLINDRICAL_SURFACE ( 'NONE', #119, 10.00000000000000000 ) ;
#20 = MANIFOLD_SOLID_BREP ( 'Ðý×', #271 ) ;
#21 = DIRECTION ( 'NONE',  ( 0.000000000000000000, 0.000000000000000000, 1.000000000000000000 ) ) ;
#22 = CIRCLE ( 'NONE', #72, 10.00000000000000000 ) ;
#23 = DIRECTION ( 'NONE',  ( -0.000000000000000000, 0.000000000000000000, 1.000000000000000000 ) ) ;
#24 = DIRECTION ( 'NONE',  ( -1.000000000000000000, -0.000000000000000000, -0.000000000000000000 ) ) ;
#25 = CYLINDRICAL_SURFACE ( 'NONE', #18, 10.00000000000000000 ) ;
#26 = ORIENTED_EDGE ( 'NONE', *, *, #122, .T. ) ;
#27 = EDGE_CURVE ( 'NONE', #193, #110, #37, .T. ) ;
#28 = APPROVAL_PERSON_ORGANIZATION ( #60, #48, #162 ) ;
#29 = CARTESIAN_POINT ( 'NONE',  ( -2.500000000000000444, 10.00000000000000000, 0.000000000000000000 ) ) ;
#30 = ORIENTED_EDGE ( 'NONE', *, *, #168, .F. ) ;
#31 = CARTESIAN_POINT ( 'NONE',  ( -1.614212418857619014, 1.224646799147353256E-15, -10.00000000000000000 ) ) ;
#32 = DIRECTION ( 'NONE',  ( 1.000000000000000000, 0.000000000000000000, 0.000000000000000000 ) ) ;
#33 = EDGE_LOOP ( 'NONE', ( #12, #69, #320, #15 ) ) ;
#34 = DIRECTION ( 'NONE',  ( 1.000000000000000000, 0.000000000000000000, 0.000000000000000000 ) ) ;
#35 = ORIENTED_EDGE ( 'NONE', *, *, #146, .T. ) ;
#36 = UNCERTAINTY_MEASURE_WITH_UNIT (LENGTH_MEASURE( 1.000000000000000082E-05 ), #156, 'distance_accuracy_value', 'NONE');
#37 = CIRCLE ( 'NONE', #77, 10.00000000000000000 ) ;
#38 = EDGE_CURVE ( 'NONE', #302, #143, #135, .T. ) ;
#39 = DATE_AND_TIME ( #164, #106 ) ;
#40 = PERSON_AND_ORGANIZATION ( #141, #261 ) ;
#41 = ORIENTED_EDGE ( 'NONE', *, *, #186, .T. ) ;
#42 = SHAPE_DEFINITION_REPRESENTATION ( #138, #217 ) ;
#43 = ORIENTED_EDGE ( 'NONE', *, *, #96, .T. ) ;
#44 = CIRCLE ( 'NONE', #248, 10.00000000000000000 ) ;
#45 = DATE_AND_TIME ( #185, #215 ) ;
#46 = DIRECTION ( 'NONE',  ( -1.000000000000000000, -0.000000000000000000, -0.000000000000000000 ) ) ;
#47 = DIRECTION ( 'NONE',  ( 0.000000000000000000, 0.000000000000000000, -1.000000000000000000 ) ) ;
#48 = APPROVAL ( #195, 'UNSPECIFIED' ) ;
#49 = APPROVAL_PERSON_ORGANIZATION ( #64, #249, #188 ) ;
#50 = DIRECTION ( 'NONE',  ( -1.000000000000000000, 0.000000000000000000, -0.000000000000000000 ) ) ;
#51 = CARTESIAN_POINT ( 'NONE',  ( -1.614212418857619014, 0.000000000000000000, 10.00000000000000000 ) ) ;
#52 = PLANE ( 'NONE',  #214 ) ;
#53 = AXIS2_PLACEMENT_3D ( 'NONE', #207, #260, #253 ) ;
#54 = DIRECTION ( 'NONE',  ( -1.000000000000000000, -0.000000000000000000, -0.000000000000000000 ) ) ;
#55 = CARTESIAN_POINT ( 'NONE',  ( 2.999999999999999112, 12.69999999999999929, 0.000000000000000000 ) ) ;
#56 = VECTOR ( 'NONE', #335, 1000.000000000000000 ) ;
#57 = CARTESIAN_POINT ( 'NONE',  ( -1.614212418857619014, 0.000000000000000000, 12.69999999999999929 ) ) ;
#58 = ADVANCED_FACE ( 'NONE', ( #61 ), #172, .T. ) ;
#59 = DIRECTION ( 'NONE',  ( 0.000000000000000000, 0.000000000000000000, 1.000000000000000000 ) ) ;
#60 = PERSON_AND_ORGANIZATION ( #141, #261 ) ;
#61 = FACE_OUTER_BOUND ( 'NONE', #278, .T. ) ;
#62 = AXIS2_PLACEMENT_3D ( 'NONE', #292, #184, #7 ) ;
#63 = ORIENTED_EDGE ( 'NONE', *, *, #17, .F. ) ;
#64 = PERSON_AND_ORGANIZATION ( #141, #261 ) ;
#65 = ORIENTED_EDGE ( 'NONE', *, *, #122, .F. ) ;
#66 = PERSON_AND_ORGANIZATION ( #141, #261 ) ;
#67 = ORIENTED_EDGE ( 'NONE', *, *, #268, .F. ) ;
#68 = CIRCLE ( 'NONE', #148, 10.00000000000000000 ) ;
#69 = ORIENTED_EDGE ( 'NONE', *, *, #268, .T. ) ;
#70 = DIRECTION ( 'NONE',  ( 0.000000000000000000, 0.000000000000000000, 1.000000000000000000 ) ) ;
#71 = CARTESIAN_POINT ( 'NONE',  ( -1.614212418857619014, 1.224646799147353256E-15, -10.00000000000000000 ) ) ;
#72 = AXIS2_PLACEMENT_3D ( 'NONE', #99, #201, #70 ) ;
#73 = APPROVAL_PERSON_ORGANIZATION ( #66, #1, #243 ) ;
#74 = LINE ( 'NONE', #98, #313 ) ;
#75 = CARTESIAN_POINT ( 'NONE',  ( -3.000000000000000444, 0.000000000000000000, 0.000000000000000000 ) ) ;
#76 = CYLINDRICAL_SURFACE ( 'NONE', #179, 10.00000000000000000 ) ;
#77 = AXIS2_PLACEMENT_3D ( 'NONE', #196, #46, #145 ) ;
#78 = FACE_OUTER_BOUND ( 'NONE', #93, .T. ) ;
#79 = DIRECTION ( 'NONE',  ( -1.000000000000000000, 0.000000000000000000, -0.000000000000000000 ) ) ;
#80 = ORIENTED_EDGE ( 'NONE', *, *, #130, .T. ) ;
#81 = DIRECTION ( 'NONE',  ( 0.000000000000000000, 0.000000000000000000, 1.000000000000000000 ) ) ;
#82 = AXIS2_PLACEMENT_3D ( 'NONE', #229, #308, #21 ) ;
#83 = CARTESIAN_POINT ( 'NONE',  ( -1.614212418857619014, 0.000000000000000000, 0.000000000000000000 ) ) ;
#84 = COORDINATED_UNIVERSAL_TIME_OFFSET ( 8, 0, .AHEAD. ) ;
#85 = PRODUCT_RELATED_PRODUCT_CATEGORY ( 'detail', '', ( #120 ) ) ;
#86 = ADVANCED_FACE ( 'NONE', ( #334, #258 ), #124, .F. ) ;
#87 = CARTESIAN_POINT ( 'NONE',  ( -1.614212418857619014, 1.555301434917138433E-15, -12.69999999999999929 ) ) ;
#88 = APPLICATION_PROTOCOL_DEFINITION ( 'international standard', 'config_control_design', 1994, #166 ) ;
#89 = AXIS2_PLACEMENT_3D ( 'NONE', #310, #269, #293 ) ;
#90 = ADVANCED_FACE ( 'NONE', ( #311 ), #52, .F. ) ;
#91 = PERSON_AND_ORGANIZATION_ROLE ( 'design_owner' ) ;
#92 = CARTESIAN_POINT ( 'NONE',  ( -3.000000000000000000, 0.000000000000000000, 12.69999999999999929 ) ) ;
#93 = EDGE_LOOP ( 'NONE', ( #107, #317, #226, #26 ) ) ;
#94 = ORIENTED_EDGE ( 'NONE', *, *, #327, .F. ) ;
#95 = CIRCLE ( 'NONE', #255, 12.69999999999999929 ) ;
#96 = EDGE_CURVE ( 'NONE', #110, #113, #203, .T. ) ;
#97 = CARTESIAN_POINT ( 'NONE',  ( -1.614212418857619014, 0.000000000000000000, 0.000000000000000000 ) ) ;
#98 = CARTESIAN_POINT ( 'NONE',  ( -1.614212418857619014, 0.000000000000000000, 10.00000000000000000 ) ) ;
#99 = CARTESIAN_POINT ( 'NONE',  ( 2.999999999999999112, 0.000000000000000000, 0.000000000000000000 ) ) ;
#100 = CARTESIAN_POINT ( 'NONE',  ( -1.614212418857619014, 0.000000000000000000, 0.000000000000000000 ) ) ;
#101 = DIRECTION ( 'NONE',  ( 0.000000000000000000, 0.000000000000000000, 1.000000000000000000 ) ) ;
#102 = CARTESIAN_POINT ( 'NONE',  ( -3.000000000000000444, 0.000000000000000000, 10.00000000000000000 ) ) ;
#103 = ORIENTED_EDGE ( 'NONE', *, *, #38, .F. ) ;
#104 = DIRECTION ( 'NONE',  ( -1.000000000000000000, -0.000000000000000000, -0.000000000000000000 ) ) ;
#105 = ORIENTED_EDGE ( 'NONE', *, *, #327, .T. ) ;
#106 = LOCAL_TIME ( 17, 17, 43.00000000000000000, #273 ) ;
#107 = ORIENTED_EDGE ( 'NONE', *, *, #96, .F. ) ;
#108 = ADVANCED_FACE ( 'NONE', ( #16 ), #149, .T. ) ;
#109 = COORDINATED_UNIVERSAL_TIME_OFFSET ( 8, 0, .AHEAD. ) ;
#110 = VERTEX_POINT ( 'NONE', #118 ) ;
#111 = APPLICATION_PROTOCOL_DEFINITION ( 'international standard', 'config_control_design', 1994, #225 ) ;
#112 = CIRCLE ( 'NONE', #198, 10.00000000000000000 ) ;
#113 = VERTEX_POINT ( 'NONE', #205 ) ;
#114 = APPROVAL_DATE_TIME ( #39, #249 ) ;
#115 = EDGE_LOOP ( 'NONE', ( #223, #43, #41, #192 ) ) ;
#116 = ORIENTED_EDGE ( 'NONE', *, *, #186, .F. ) ;
#117 = ADVANCED_FACE ( 'NONE', ( #121 ), #19, .F. ) ;
#118 = CARTESIAN_POINT ( 'NONE',  ( 2.999999999999999112, 1.224646799147353256E-15, -10.00000000000000000 ) ) ;
#119 = AXIS2_PLACEMENT_3D ( 'NONE', #97, #151, #200 ) ;
#120 = PRODUCT ( 'Q-OZHWP-R2-20-980-M', 'Q-OZHWP-R2-20-980-M', '', ( #139 ) ) ;
#121 = FACE_OUTER_BOUND ( 'NONE', #298, .T. ) ;
#122 = EDGE_CURVE ( 'NONE', #219, #113, #242, .T. ) ;
#123 = CARTESIAN_POINT ( 'NONE',  ( -3.000000000000000000, 1.555301434917138433E-15, -12.69999999999999929 ) ) ;
#124 = PLANE ( 'NONE',  #53 ) ;
#125 = CIRCLE ( 'NONE', #62, 12.69999999999999929 ) ;
#126 = DIRECTION ( 'NONE',  ( -1.000000000000000000, -0.000000000000000000, -0.000000000000000000 ) ) ;
#127 = CARTESIAN_POINT ( 'NONE',  ( 3.000000000000000000, 0.000000000000000000, 0.000000000000000000 ) ) ;
#128 = DIRECTION ( 'NONE',  ( -1.000000000000000000, -0.000000000000000000, -0.000000000000000000 ) ) ;
#129 = ORIENTED_EDGE ( 'NONE', *, *, #202, .F. ) ;
#130 = EDGE_CURVE ( 'NONE', #281, #323, #74, .T. ) ;
#131 =( NAMED_UNIT ( * ) SI_UNIT ( $, .STERADIAN. ) SOLID_ANGLE_UNIT ( ) );
#132 = LINE ( 'NONE', #31, #56 ) ;
#133 = CC_DESIGN_APPROVAL ( #48, ( #175 ) ) ;
#134 = CALENDAR_DATE ( 2020, 22, 12 ) ;
#135 = LINE ( 'NONE', #87, #267 ) ;
#136 = PERSON_AND_ORGANIZATION ( #141, #261 ) ;
#137 = EDGE_LOOP ( 'NONE', ( #103, #300, #245, #63 ) ) ;
#138 = PRODUCT_DEFINITION_SHAPE ( 'NONE', 'NONE',  #309 ) ;
#139 = MECHANICAL_CONTEXT ( 'NONE', #225, 'mechanical' ) ;
#140 = EDGE_LOOP ( 'NONE', ( #129, #30 ) ) ;
#141 = PERSON ( 'UNSPECIFIED', 'UNSPECIFIED', 'UNSPECIFIED', ('UNSPECIFIED'), ('UNSPECIFIED'), ('UNSPECIFIED') ) ;
#142 = AXIS2_PLACEMENT_3D ( 'NONE', #305, #285, #257 ) ;
#143 = VERTEX_POINT ( 'NONE', #123 ) ;
#144 = ADVANCED_FACE ( 'NONE', ( #283 ), #233, .F. ) ;
#145 = DIRECTION ( 'NONE',  ( 0.000000000000000000, 0.000000000000000000, 1.000000000000000000 ) ) ;
#146 = EDGE_CURVE ( 'NONE', #110, #193, #22, .T. ) ;
#147 = CARTESIAN_POINT ( 'NONE',  ( -2.500000000000000444, 1.224646799147353256E-15, -10.00000000000000000 ) ) ;
#148 = AXIS2_PLACEMENT_3D ( 'NONE', #178, #54, #153 ) ;
#149 = CYLINDRICAL_SURFACE ( 'NONE', #221, 12.69999999999999929 ) ;
#150 = DIRECTION ( 'NONE',  ( -1.000000000000000000, -0.000000000000000000, -0.000000000000000000 ) ) ;
#151 = DIRECTION ( 'NONE',  ( -1.000000000000000000, -0.000000000000000000, -0.000000000000000000 ) ) ;
#152 = LOCAL_TIME ( 17, 17, 43.00000000000000000, #109 ) ;
#153 = DIRECTION ( 'NONE',  ( 0.000000000000000000, 0.000000000000000000, 1.000000000000000000 ) ) ;
#154 = DIRECTION ( 'NONE',  ( -0.000000000000000000, 0.000000000000000000, 1.000000000000000000 ) ) ;
#155 = EDGE_LOOP ( 'NONE', ( #65, #116 ) ) ;
#156 =( LENGTH_UNIT ( ) NAMED_UNIT ( * ) SI_UNIT ( .MILLI., .METRE. ) );
#157 = VECTOR ( 'NONE', #230, 1000.000000000000000 ) ;
#158 = CARTESIAN_POINT ( 'NONE',  ( -2.500000000000000444, 0.000000000000000000, 0.000000000000000000 ) ) ;
#159 = DATE_AND_TIME ( #134, #152 ) ;
#160 = EDGE_CURVE ( 'NONE', #281, #163, #297, .T. ) ;
#161 = CIRCLE ( 'NONE', #82, 12.69999999999999929 ) ;
#162 = APPROVAL_ROLE ( '' ) ;
#163 = VERTEX_POINT ( 'NONE', #147 ) ;
#164 = CALENDAR_DATE ( 2020, 22, 12 ) ;
#165 = ORIENTED_EDGE ( 'NONE', *, *, #160, .F. ) ;
#166 = APPLICATION_CONTEXT ( 'configuration controlled 3d designs of mechanical parts and assemblies' ) ;
#167 = ORIENTED_EDGE ( 'NONE', *, *, #254, .F. ) ;
#168 = EDGE_CURVE ( 'NONE', #239, #323, #112, .T. ) ;
#169 = AXIS2_PLACEMENT_3D ( 'NONE', #55, #79, #154 ) ;
#170 = EDGE_LOOP ( 'NONE', ( #105, #328 ) ) ;
#171 = EDGE_CURVE ( 'NONE', #294, #302, #161, .T. ) ;
#172 = CYLINDRICAL_SURFACE ( 'NONE', #227, 12.69999999999999929 ) ;
#173 = DIRECTION ( 'NONE',  ( 1.000000000000000000, 0.000000000000000000, 0.000000000000000000 ) ) ;
#174 = DIRECTION ( 'NONE',  ( 0.000000000000000000, 0.000000000000000000, 1.000000000000000000 ) ) ;
#175 = PRODUCT_DEFINITION_FORMATION_WITH_SPECIFIED_SOURCE ( 'ANY', '', #120, .NOT_KNOWN. ) ;
#176 = CARTESIAN_POINT ( 'NONE',  ( -1.614212418857619014, 0.000000000000000000, 0.000000000000000000 ) ) ;
#177 = CARTESIAN_POINT ( 'NONE',  ( -2.500000000000000444, 0.000000000000000000, 0.000000000000000000 ) ) ;
#178 = CARTESIAN_POINT ( 'NONE',  ( -3.000000000000000444, 0.000000000000000000, 0.000000000000000000 ) ) ;
#179 = AXIS2_PLACEMENT_3D ( 'NONE', #180, #236, #212 ) ;
#180 = CARTESIAN_POINT ( 'NONE',  ( -1.614212418857619014, 0.000000000000000000, 0.000000000000000000 ) ) ;
#181 = EDGE_CURVE ( 'NONE', #193, #219, #286, .T. ) ;
#182 =( NAMED_UNIT ( * ) PLANE_ANGLE_UNIT ( ) SI_UNIT ( $, .RADIAN. ) );
#183 = AXIS2_PLACEMENT_3D ( 'NONE', #176, #332, #101 ) ;
#184 = DIRECTION ( 'NONE',  ( -1.000000000000000000, -0.000000000000000000, -0.000000000000000000 ) ) ;
#185 = CALENDAR_DATE ( 2020, 22, 12 ) ;
#186 = EDGE_CURVE ( 'NONE', #113, #219, #284, .T. ) ;
#187 = EDGE_CURVE ( 'NONE', #294, #6, #312, .T. ) ;
#188 = APPROVAL_ROLE ( '' ) ;
#189 = DIRECTION ( 'NONE',  ( -1.000000000000000000, -0.000000000000000000, -0.000000000000000000 ) ) ;
#190 =( GEOMETRIC_REPRESENTATION_CONTEXT ( 3 ) GLOBAL_UNCERTAINTY_ASSIGNED_CONTEXT ( ( #36 ) ) GLOBAL_UNIT_ASSIGNED_CONTEXT ( ( #156, #182, #131 ) ) REPRESENTATION_CONTEXT ( 'NONE', 'WORKASPACE' ) );
#191 = COORDINATED_UNIVERSAL_TIME_OFFSET ( 8, 0, .AHEAD. ) ;
#192 = ORIENTED_EDGE ( 'NONE', *, *, #181, .F. ) ;
#193 = VERTEX_POINT ( 'NONE', #264 ) ;
#194 = EDGE_CURVE ( 'NONE', #163, #281, #44, .T. ) ;
#195 = APPROVAL_STATUS ( 'not_yet_approved' ) ;
#196 = CARTESIAN_POINT ( 'NONE',  ( 2.999999999999999112, 0.000000000000000000, 0.000000000000000000 ) ) ;
#197 = CC_DESIGN_DATE_AND_TIME_ASSIGNMENT ( #45, #319, ( #329 ) ) ;
#198 = AXIS2_PLACEMENT_3D ( 'NONE', #75, #256, #288 ) ;
#199 = ORIENTED_EDGE ( 'NONE', *, *, #27, .T. ) ;
#200 = DIRECTION ( 'NONE',  ( 0.000000000000000000, 0.000000000000000000, 1.000000000000000000 ) ) ;
#201 = DIRECTION ( 'NONE',  ( -1.000000000000000000, -0.000000000000000000, -0.000000000000000000 ) ) ;
#202 = EDGE_CURVE ( 'NONE', #323, #239, #68, .T. ) ;
#203 = LINE ( 'NONE', #71, #279 ) ;
#204 = VECTOR ( 'NONE', #24, 1000.000000000000000 ) ;
#205 = CARTESIAN_POINT ( 'NONE',  ( 2.500000000000000888, 1.224646799147353256E-15, -10.00000000000000000 ) ) ;
#206 = ADVANCED_FACE ( 'NONE', ( #78 ), #76, .F. ) ;
#207 = CARTESIAN_POINT ( 'NONE',  ( -3.000000000000000000, 10.00000000000000000, 0.000000000000000000 ) ) ;
#208 = DIRECTION ( 'NONE',  ( 0.000000000000000000, 0.000000000000000000, -1.000000000000000000 ) ) ;
#209 = CIRCLE ( 'NONE', #2, 12.69999999999999929 ) ;
#210 = FACE_OUTER_BOUND ( 'NONE', #224, .T. ) ;
#211 = ORIENTED_EDGE ( 'NONE', *, *, #202, .T. ) ;
#212 = DIRECTION ( 'NONE',  ( 0.000000000000000000, 0.000000000000000000, 1.000000000000000000 ) ) ;
#213 = FACE_OUTER_BOUND ( 'NONE', #115, .T. ) ;
#214 = AXIS2_PLACEMENT_3D ( 'NONE', #228, #50, #23 ) ;
#215 = LOCAL_TIME ( 17, 17, 43.00000000000000000, #84 ) ;
#216 = FACE_BOUND ( 'NONE', #274, .T. ) ;
#217 = ADVANCED_BREP_SHAPE_REPRESENTATION ( 'Q-OZHWP-R2-20-980-M', ( #20, #291 ), #190 ) ;
#218 = CARTESIAN_POINT ( 'NONE',  ( 0.000000000000000000, 0.000000000000000000, 0.000000000000000000 ) ) ;
#219 = VERTEX_POINT ( 'NONE', #237 ) ;
#220 = SECURITY_CLASSIFICATION_LEVEL ( 'unclassified' ) ;
#221 = AXIS2_PLACEMENT_3D ( 'NONE', #100, #331, #174 ) ;
#222 = PERSON_AND_ORGANIZATION ( #141, #261 ) ;
#223 = ORIENTED_EDGE ( 'NONE', *, *, #146, .F. ) ;
#224 = EDGE_LOOP ( 'NONE', ( #252, #167 ) ) ;
#225 = APPLICATION_CONTEXT ( 'configuration controlled 3d designs of mechanical parts and assemblies' ) ;
#226 = ORIENTED_EDGE ( 'NONE', *, *, #181, .T. ) ;
#227 = AXIS2_PLACEMENT_3D ( 'NONE', #333, #306, #282 ) ;
#228 = CARTESIAN_POINT ( 'NONE',  ( 2.500000000000000444, 10.00000000000000000, 0.000000000000000000 ) ) ;
#229 = CARTESIAN_POINT ( 'NONE',  ( 3.000000000000000000, 0.000000000000000000, 0.000000000000000000 ) ) ;
#230 = DIRECTION ( 'NONE',  ( -1.000000000000000000, -0.000000000000000000, -0.000000000000000000 ) ) ;
#231 = AXIS2_PLACEMENT_3D ( 'NONE', #29, #4, #5 ) ;
#232 = CC_DESIGN_APPROVAL ( #1, ( #329 ) ) ;
#233 = CYLINDRICAL_SURFACE ( 'NONE', #183, 10.00000000000000000 ) ;
#234 = DIRECTION ( 'NONE',  ( 0.000000000000000000, 0.000000000000000000, 1.000000000000000000 ) ) ;
#235 = ADVANCED_FACE ( 'NONE', ( #266 ), #290, .F. ) ;
#236 = DIRECTION ( 'NONE',  ( -1.000000000000000000, -0.000000000000000000, -0.000000000000000000 ) ) ;
#237 = CARTESIAN_POINT ( 'NONE',  ( 2.500000000000000888, 0.000000000000000000, 10.00000000000000000 ) ) ;
#238 = CARTESIAN_POINT ( 'NONE',  ( 3.000000000000000000, 0.000000000000000000, 12.69999999999999929 ) ) ;
#239 = VERTEX_POINT ( 'NONE', #263 ) ;
#240 = CARTESIAN_POINT ( 'NONE',  ( 3.000000000000000000, 1.555301434917138433E-15, -12.69999999999999929 ) ) ;
#241 = ADVANCED_FACE ( 'NONE', ( #213 ), #25, .F. ) ;
#242 = CIRCLE ( 'NONE', #142, 10.00000000000000000 ) ;
#243 = APPROVAL_ROLE ( '' ) ;
#244 = PERSON_AND_ORGANIZATION_ROLE ( 'creator' ) ;
#245 = ORIENTED_EDGE ( 'NONE', *, *, #187, .T. ) ;
#246 = CALENDAR_DATE ( 2020, 22, 12 ) ;
#247 = ORIENTED_EDGE ( 'NONE', *, *, #194, .F. ) ;
#248 = AXIS2_PLACEMENT_3D ( 'NONE', #158, #32, #208 ) ;
#249 = APPROVAL ( #316, 'UNSPECIFIED' ) ;
#250 = CARTESIAN_POINT ( 'NONE',  ( -3.000000000000000000, 0.000000000000000000, 0.000000000000000000 ) ) ;
#251 = PERSON_AND_ORGANIZATION ( #141, #261 ) ;
#252 = ORIENTED_EDGE ( 'NONE', *, *, #171, .F. ) ;
#253 = DIRECTION ( 'NONE',  ( 0.000000000000000000, 0.000000000000000000, -1.000000000000000000 ) ) ;
#254 = EDGE_CURVE ( 'NONE', #302, #294, #209, .T. ) ;
#255 = AXIS2_PLACEMENT_3D ( 'NONE', #250, #304, #326 ) ;
#256 = DIRECTION ( 'NONE',  ( -1.000000000000000000, -0.000000000000000000, -0.000000000000000000 ) ) ;
#257 = DIRECTION ( 'NONE',  ( 0.000000000000000000, 0.000000000000000000, 1.000000000000000000 ) ) ;
#258 = FACE_OUTER_BOUND ( 'NONE', #170, .T. ) ;
#259 = CC_DESIGN_PERSON_AND_ORGANIZATION_ASSIGNMENT ( #40, #301, ( #175 ) ) ;
#260 = DIRECTION ( 'NONE',  ( 1.000000000000000000, 0.000000000000000000, 0.000000000000000000 ) ) ;
#261 = ORGANIZATION ( 'UNSPECIFIED', 'UNSPECIFIED', '' ) ;
#262 = LOCAL_TIME ( 17, 17, 43.00000000000000000, #191 ) ;
#263 = CARTESIAN_POINT ( 'NONE',  ( -3.000000000000000444, 1.224646799147353256E-15, -10.00000000000000000 ) ) ;
#264 = CARTESIAN_POINT ( 'NONE',  ( 2.999999999999999112, 0.000000000000000000, 10.00000000000000000 ) ) ;
#265 = CC_DESIGN_DATE_AND_TIME_ASSIGNMENT ( #11, #296, ( #309 ) ) ;
#266 = FACE_OUTER_BOUND ( 'NONE', #14, .T. ) ;
#267 = VECTOR ( 'NONE', #189, 1000.000000000000000 ) ;
#268 = EDGE_CURVE ( 'NONE', #163, #239, #132, .T. ) ;
#269 = DIRECTION ( 'NONE',  ( -1.000000000000000000, -0.000000000000000000, -0.000000000000000000 ) ) ;
#270 = ORIENTED_EDGE ( 'NONE', *, *, #38, .T. ) ;
#271 = CLOSED_SHELL ( 'NONE', ( #58, #144, #241, #90, #206, #117, #86, #108, #330, #235 ) ) ;
#272 = CC_DESIGN_SECURITY_CLASSIFICATION ( #329, ( #175 ) ) ;
#273 = COORDINATED_UNIVERSAL_TIME_OFFSET ( 8, 0, .AHEAD. ) ;
#274 = EDGE_LOOP ( 'NONE', ( #199, #35 ) ) ;
#275 = APPROVAL_STATUS ( 'not_yet_approved' ) ;
#276 = ORIENTED_EDGE ( 'NONE', *, *, #187, .F. ) ;
#277 = DATE_AND_TIME ( #13, #262 ) ;
#278 = EDGE_LOOP ( 'NONE', ( #10, #270, #94, #276 ) ) ;
#279 = VECTOR ( 'NONE', #150, 1000.000000000000000 ) ;
#280 = COORDINATED_UNIVERSAL_TIME_OFFSET ( 8, 0, .AHEAD. ) ;
#281 = VERTEX_POINT ( 'NONE', #3 ) ;
#282 = DIRECTION ( 'NONE',  ( 0.000000000000000000, 0.000000000000000000, 1.000000000000000000 ) ) ;
#283 = FACE_OUTER_BOUND ( 'NONE', #33, .T. ) ;
#284 = CIRCLE ( 'NONE', #89, 10.00000000000000000 ) ;
#285 = DIRECTION ( 'NONE',  ( -1.000000000000000000, -0.000000000000000000, -0.000000000000000000 ) ) ;
#286 = LINE ( 'NONE', #51, #157 ) ;
#287 = CC_DESIGN_PERSON_AND_ORGANIZATION_ASSIGNMENT ( #222, #244, ( #309 ) ) ;
#288 = DIRECTION ( 'NONE',  ( 0.000000000000000000, 0.000000000000000000, 1.000000000000000000 ) ) ;
#289 = CC_DESIGN_PERSON_AND_ORGANIZATION_ASSIGNMENT ( #251, #91, ( #120 ) ) ;
#290 = PLANE ( 'NONE',  #231 ) ;
#291 = AXIS2_PLACEMENT_3D ( 'NONE', #218, #59, #34 ) ;
#292 = CARTESIAN_POINT ( 'NONE',  ( -3.000000000000000000, 0.000000000000000000, 0.000000000000000000 ) ) ;
#293 = DIRECTION ( 'NONE',  ( 0.000000000000000000, 0.000000000000000000, 1.000000000000000000 ) ) ;
#294 = VERTEX_POINT ( 'NONE', #238 ) ;
#295 = APPROVAL_DATE_TIME ( #277, #1 ) ;
#296 = DATE_TIME_ROLE ( 'creation_date' ) ;
#297 = CIRCLE ( 'NONE', #307, 10.00000000000000000 ) ;
#298 = EDGE_LOOP ( 'NONE', ( #67, #9, #80, #211 ) ) ;
#299 = PERSON_AND_ORGANIZATION_ROLE ( 'classification_officer' ) ;
#300 = ORIENTED_EDGE ( 'NONE', *, *, #254, .T. ) ;
#301 = PERSON_AND_ORGANIZATION_ROLE ( 'design_supplier' ) ;
#302 = VERTEX_POINT ( 'NONE', #240 ) ;
#303 = LOCAL_TIME ( 17, 17, 43.00000000000000000, #280 ) ;
#304 = DIRECTION ( 'NONE',  ( -1.000000000000000000, -0.000000000000000000, -0.000000000000000000 ) ) ;
#305 = CARTESIAN_POINT ( 'NONE',  ( 2.500000000000000888, 0.000000000000000000, 0.000000000000000000 ) ) ;
#306 = DIRECTION ( 'NONE',  ( -1.000000000000000000, -0.000000000000000000, -0.000000000000000000 ) ) ;
#307 = AXIS2_PLACEMENT_3D ( 'NONE', #177, #173, #47 ) ;
#308 = DIRECTION ( 'NONE',  ( -1.000000000000000000, -0.000000000000000000, -0.000000000000000000 ) ) ;
#309 = PRODUCT_DEFINITION ( 'UNKNOWN', '', #175, #324 ) ;
#310 = CARTESIAN_POINT ( 'NONE',  ( 2.500000000000000888, 0.000000000000000000, 0.000000000000000000 ) ) ;
#311 = FACE_OUTER_BOUND ( 'NONE', #155, .T. ) ;
#312 = LINE ( 'NONE', #57, #204 ) ;
#313 = VECTOR ( 'NONE', #126, 1000.000000000000000 ) ;
#314 = PLANE ( 'NONE',  #169 ) ;
#315 = CC_DESIGN_PERSON_AND_ORGANIZATION_ASSIGNMENT ( #136, #325, ( #175 ) ) ;
#316 = APPROVAL_STATUS ( 'not_yet_approved' ) ;
#317 = ORIENTED_EDGE ( 'NONE', *, *, #27, .F. ) ;
#318 = CC_DESIGN_PERSON_AND_ORGANIZATION_ASSIGNMENT ( #322, #299, ( #329 ) ) ;
#319 = DATE_TIME_ROLE ( 'classification_date' ) ;
#320 = ORIENTED_EDGE ( 'NONE', *, *, #168, .T. ) ;
#321 = CC_DESIGN_APPROVAL ( #249, ( #309 ) ) ;
#322 = PERSON_AND_ORGANIZATION ( #141, #261 ) ;
#323 = VERTEX_POINT ( 'NONE', #102 ) ;
#324 = DESIGN_CONTEXT ( 'detailed design', #166, 'design' ) ;
#325 = PERSON_AND_ORGANIZATION_ROLE ( 'creator' ) ;
#326 = DIRECTION ( 'NONE',  ( 0.000000000000000000, 0.000000000000000000, 1.000000000000000000 ) ) ;
#327 = EDGE_CURVE ( 'NONE', #6, #143, #125, .T. ) ;
#328 = ORIENTED_EDGE ( 'NONE', *, *, #17, .T. ) ;
#329 = SECURITY_CLASSIFICATION ( '', '', #220 ) ;
#330 = ADVANCED_FACE ( 'NONE', ( #210, #216 ), #314, .F. ) ;
#331 = DIRECTION ( 'NONE',  ( -1.000000000000000000, -0.000000000000000000, -0.000000000000000000 ) ) ;
#332 = DIRECTION ( 'NONE',  ( -1.000000000000000000, -0.000000000000000000, -0.000000000000000000 ) ) ;
#333 = CARTESIAN_POINT ( 'NONE',  ( -1.614212418857619014, 0.000000000000000000, 0.000000000000000000 ) ) ;
#334 = FACE_BOUND ( 'NONE', #140, .T. ) ;
#335 = DIRECTION ( 'NONE',  ( -1.000000000000000000, -0.000000000000000000, -0.000000000000000000 ) ) ;
ENDSEC;
END-ISO-10303-21;
